ISO-10303-21;
HEADER;
FILE_DESCRIPTION (( 'STEP AP203' ),
    '1' );
FILE_NAME ('Q-AZHWP-12.7-532-M.STEP',
    '2020-12-22T09:07:21',
    ( '' ),
    ( '' ),
    'SwSTEP 2.0',
    'SolidWorks 2020',
    '' );
FILE_SCHEMA (( 'CONFIG_CONTROL_DESIGN' ));
ENDSEC;

DATA;
#1 = VECTOR ( 'NONE', #272, 1000.000000000000000 ) ;
#2 = ORIENTED_EDGE ( 'NONE', *, *, #271, .T. ) ;
#3 = AXIS2_PLACEMENT_3D ( 'NONE', #243, #113, #316 ) ;
#4 = APPROVAL_STATUS ( 'not_yet_approved' ) ;
#5 = CARTESIAN_POINT ( 'NONE',  ( -2.999999999999999556, 0.000000000000000000, 6.349999999999999645 ) ) ;
#6 = EDGE_LOOP ( 'NONE', ( #317, #288, #27, #186 ) ) ;
#7 = LOCAL_TIME ( 17, 7, 21.00000000000000000, #136 ) ;
#8 = MANIFOLD_SOLID_BREP ( 'Ðý×', #282 ) ;
#9 = PERSON_AND_ORGANIZATION ( #328, #256 ) ;
#10 = APPROVAL_ROLE ( '' ) ;
#11 = DIRECTION ( 'NONE',  ( 0.000000000000000000, 0.000000000000000000, -1.000000000000000000 ) ) ;
#12 = PERSON_AND_ORGANIZATION_ROLE ( 'creator' ) ;
#13 = DIRECTION ( 'NONE',  ( 1.000000000000000000, 0.000000000000000000, 0.000000000000000000 ) ) ;
#14 = APPROVAL_PERSON_ORGANIZATION ( #255, #167, #10 ) ;
#15 = ORIENTED_EDGE ( 'NONE', *, *, #333, .F. ) ;
#16 = DIRECTION ( 'NONE',  ( -1.000000000000000000, 0.000000000000000000, -0.000000000000000000 ) ) ;
#17 = CARTESIAN_POINT ( 'NONE',  ( 1.500000000000000888, 0.000000000000000000, 6.349999999999999645 ) ) ;
#18 = PERSON_AND_ORGANIZATION ( #328, #256 ) ;
#19 = CARTESIAN_POINT ( 'NONE',  ( 1.500000000000000888, 7.776507174585692163E-16, -6.349999999999999645 ) ) ;
#20 = CARTESIAN_POINT ( 'NONE',  ( -1.614212418857619014, 0.000000000000000000, 12.69999999999999929 ) ) ;
#21 = EDGE_CURVE ( 'NONE', #81, #132, #230, .T. ) ;
#22 = DIRECTION ( 'NONE',  ( -1.000000000000000000, -0.000000000000000000, -0.000000000000000000 ) ) ;
#23 = MECHANICAL_CONTEXT ( 'NONE', #221, 'mechanical' ) ;
#24 = FACE_OUTER_BOUND ( 'NONE', #193, .T. ) ;
#25 = VERTEX_POINT ( 'NONE', #5 ) ;
#26 = CARTESIAN_POINT ( 'NONE',  ( -1.614212418857619014, 0.000000000000000000, 0.000000000000000000 ) ) ;
#27 = ORIENTED_EDGE ( 'NONE', *, *, #320, .T. ) ;
#28 = ORIENTED_EDGE ( 'NONE', *, *, #65, .T. ) ;
#29 = AXIS2_PLACEMENT_3D ( 'NONE', #139, #246, #96 ) ;
#30 = APPROVAL_PERSON_ORGANIZATION ( #322, #220, #134 ) ;
#31 = PERSON_AND_ORGANIZATION_ROLE ( 'design_supplier' ) ;
#32 = CARTESIAN_POINT ( 'NONE',  ( -1.500000000000000444, 0.000000000000000000, 0.000000000000000000 ) ) ;
#33 = ORIENTED_EDGE ( 'NONE', *, *, #251, .F. ) ;
#34 = DIRECTION ( 'NONE',  ( -1.000000000000000000, -0.000000000000000000, -0.000000000000000000 ) ) ;
#35 = VERTEX_POINT ( 'NONE', #108 ) ;
#36 = FACE_BOUND ( 'NONE', #62, .T. ) ;
#37 = LOCAL_TIME ( 17, 7, 21.00000000000000000, #52 ) ;
#38 = ADVANCED_FACE ( 'NONE', ( #36, #206 ), #267, .F. ) ;
#39 = DIRECTION ( 'NONE',  ( -1.000000000000000000, -0.000000000000000000, -0.000000000000000000 ) ) ;
#40 = DIRECTION ( 'NONE',  ( 0.000000000000000000, 0.000000000000000000, 1.000000000000000000 ) ) ;
#41 = CC_DESIGN_DATE_AND_TIME_ASSIGNMENT ( #112, #105, ( #273 ) ) ;
#42 = UNCERTAINTY_MEASURE_WITH_UNIT (LENGTH_MEASURE( 1.000000000000000082E-05 ), #311, 'distance_accuracy_value', 'NONE');
#43 = CYLINDRICAL_SURFACE ( 'NONE', #169, 12.69999999999999929 ) ;
#44 = CARTESIAN_POINT ( 'NONE',  ( 1.500000000000000888, 0.000000000000000000, 0.000000000000000000 ) ) ;
#45 = DIRECTION ( 'NONE',  ( 0.000000000000000000, 0.000000000000000000, 1.000000000000000000 ) ) ;
#46 = PERSON_AND_ORGANIZATION_ROLE ( 'design_owner' ) ;
#47 = DIRECTION ( 'NONE',  ( 0.000000000000000000, 0.000000000000000000, 1.000000000000000000 ) ) ;
#48 = VECTOR ( 'NONE', #103, 1000.000000000000000 ) ;
#49 = ADVANCED_FACE ( 'NONE', ( #64 ), #59, .F. ) ;
#50 = SECURITY_CLASSIFICATION_LEVEL ( 'unclassified' ) ;
#51 = ORIENTED_EDGE ( 'NONE', *, *, #271, .F. ) ;
#52 = COORDINATED_UNIVERSAL_TIME_OFFSET ( 8, 0, .AHEAD. ) ;
#53 = DIRECTION ( 'NONE',  ( -1.000000000000000000, 0.000000000000000000, -0.000000000000000000 ) ) ;
#54 = EDGE_LOOP ( 'NONE', ( #237, #216, #114, #33 ) ) ;
#55 = ORIENTED_EDGE ( 'NONE', *, *, #88, .T. ) ;
#56 = ADVANCED_FACE ( 'NONE', ( #86 ), #179, .F. ) ;
#57 = ORIENTED_EDGE ( 'NONE', *, *, #88, .F. ) ;
#58 = DATE_AND_TIME ( #107, #7 ) ;
#59 = PLANE ( 'NONE',  #63 ) ;
#60 = ORIENTED_EDGE ( 'NONE', *, *, #251, .T. ) ;
#61 = CARTESIAN_POINT ( 'NONE',  ( -2.999999999999999556, 0.000000000000000000, 0.000000000000000000 ) ) ;
#62 = EDGE_LOOP ( 'NONE', ( #116, #321 ) ) ;
#63 = AXIS2_PLACEMENT_3D ( 'NONE', #287, #325, #11 ) ;
#64 = FACE_OUTER_BOUND ( 'NONE', #258, .T. ) ;
#65 = EDGE_CURVE ( 'NONE', #25, #211, #298, .T. ) ;
#66 = AXIS2_PLACEMENT_3D ( 'NONE', #191, #39, #40 ) ;
#67 = DIRECTION ( 'NONE',  ( 0.000000000000000000, 0.000000000000000000, 1.000000000000000000 ) ) ;
#68 = ORIENTED_EDGE ( 'NONE', *, *, #118, .T. ) ;
#69 = PERSON_AND_ORGANIZATION_ROLE ( 'creator' ) ;
#70 = CARTESIAN_POINT ( 'NONE',  ( -2.999999999999999556, 7.776507174585692163E-16, -6.349999999999999645 ) ) ;
#71 = LINE ( 'NONE', #123, #204 ) ;
#72 = CIRCLE ( 'NONE', #252, 6.349999999999999645 ) ;
#73 = FACE_BOUND ( 'NONE', #83, .T. ) ;
#74 = LINE ( 'NONE', #20, #244 ) ;
#75 = CC_DESIGN_PERSON_AND_ORGANIZATION_ASSIGNMENT ( #18, #31, ( #226 ) ) ;
#76 =( NAMED_UNIT ( * ) PLANE_ANGLE_UNIT ( ) SI_UNIT ( $, .RADIAN. ) );
#77 = EDGE_LOOP ( 'NONE', ( #314, #87 ) ) ;
#78 = APPROVAL_PERSON_ORGANIZATION ( #140, #177, #178 ) ;
#79 = DATE_TIME_ROLE ( 'creation_date' ) ;
#80 = FACE_OUTER_BOUND ( 'NONE', #160, .T. ) ;
#81 = VERTEX_POINT ( 'NONE', #270 ) ;
#82 = CARTESIAN_POINT ( 'NONE',  ( -1.614212418857619014, 7.776507174585692163E-16, -6.349999999999999645 ) ) ;
#83 = EDGE_LOOP ( 'NONE', ( #262, #324 ) ) ;
#84 = DIRECTION ( 'NONE',  ( -1.000000000000000000, -0.000000000000000000, -0.000000000000000000 ) ) ;
#85 = APPROVAL_DATE_TIME ( #213, #220 ) ;
#86 = FACE_OUTER_BOUND ( 'NONE', #163, .T. ) ;
#87 = ORIENTED_EDGE ( 'NONE', *, *, #21, .T. ) ;
#88 = EDGE_CURVE ( 'NONE', #173, #319, #303, .T. ) ;
#89 = AXIS2_PLACEMENT_3D ( 'NONE', #217, #53, #214 ) ;
#90 = AXIS2_PLACEMENT_3D ( 'NONE', #330, #94, #164 ) ;
#91 = CC_DESIGN_APPROVAL ( #220, ( #273 ) ) ;
#92 = FACE_OUTER_BOUND ( 'NONE', #54, .T. ) ;
#93 = DIRECTION ( 'NONE',  ( 0.000000000000000000, 0.000000000000000000, 1.000000000000000000 ) ) ;
#94 = DIRECTION ( 'NONE',  ( 1.000000000000000000, 0.000000000000000000, 0.000000000000000000 ) ) ;
#95 = ORIENTED_EDGE ( 'NONE', *, *, #296, .F. ) ;
#96 = DIRECTION ( 'NONE',  ( 0.000000000000000000, 0.000000000000000000, 1.000000000000000000 ) ) ;
#97 = LOCAL_TIME ( 17, 7, 21.00000000000000000, #295 ) ;
#98 = APPLICATION_PROTOCOL_DEFINITION ( 'international standard', 'config_control_design', 1994, #221 ) ;
#99 = DIRECTION ( 'NONE',  ( 1.000000000000000000, 0.000000000000000000, 0.000000000000000000 ) ) ;
#100 = AXIS2_PLACEMENT_3D ( 'NONE', #32, #137, #135 ) ;
#101 = ADVANCED_FACE ( 'NONE', ( #80 ), #115, .F. ) ;
#102 = DIRECTION ( 'NONE',  ( 0.000000000000000000, 0.000000000000000000, 1.000000000000000000 ) ) ;
#103 = DIRECTION ( 'NONE',  ( -1.000000000000000000, -0.000000000000000000, -0.000000000000000000 ) ) ;
#104 = ORIENTED_EDGE ( 'NONE', *, *, #269, .T. ) ;
#105 = DATE_TIME_ROLE ( 'classification_date' ) ;
#106 = VERTEX_POINT ( 'NONE', #323 ) ;
#107 = CALENDAR_DATE ( 2020, 22, 12 ) ;
#108 = CARTESIAN_POINT ( 'NONE',  ( -1.500000000000000444, 7.776507174585692163E-16, -6.349999999999999645 ) ) ;
#109 = APPROVAL_DATE_TIME ( #234, #167 ) ;
#110 = DIRECTION ( 'NONE',  ( 0.000000000000000000, 0.000000000000000000, 1.000000000000000000 ) ) ;
#111 = ORIENTED_EDGE ( 'NONE', *, *, #296, .T. ) ;
#112 = DATE_AND_TIME ( #286, #97 ) ;
#113 = DIRECTION ( 'NONE',  ( -1.000000000000000000, -0.000000000000000000, -0.000000000000000000 ) ) ;
#114 = ORIENTED_EDGE ( 'NONE', *, *, #144, .T. ) ;
#115 = PLANE ( 'NONE',  #89 ) ;
#116 = ORIENTED_EDGE ( 'NONE', *, *, #65, .F. ) ;
#117 = FACE_OUTER_BOUND ( 'NONE', #6, .T. ) ;
#118 = EDGE_CURVE ( 'NONE', #35, #211, #209, .T. ) ;
#119 = DIRECTION ( 'NONE',  ( -1.000000000000000000, -0.000000000000000000, -0.000000000000000000 ) ) ;
#120 = APPROVAL_STATUS ( 'not_yet_approved' ) ;
#121 = VECTOR ( 'NONE', #223, 1000.000000000000000 ) ;
#122 = CARTESIAN_POINT ( 'NONE',  ( -1.614212418857619014, 1.555301434917138433E-15, -12.69999999999999929 ) ) ;
#123 = CARTESIAN_POINT ( 'NONE',  ( -1.614212418857619014, 0.000000000000000000, 6.349999999999999645 ) ) ;
#124 = CARTESIAN_POINT ( 'NONE',  ( -1.614212418857619014, 0.000000000000000000, 0.000000000000000000 ) ) ;
#125 = APPLICATION_CONTEXT ( 'configuration controlled 3d designs of mechanical parts and assemblies' ) ;
#126 = LOCAL_TIME ( 17, 7, 21.00000000000000000, #241 ) ;
#127 = ADVANCED_FACE ( 'NONE', ( #131 ), #261, .F. ) ;
#128 = EDGE_CURVE ( 'NONE', #266, #35, #153, .T. ) ;
#129 = CARTESIAN_POINT ( 'NONE',  ( -1.614212418857619014, 0.000000000000000000, 0.000000000000000000 ) ) ;
#130 = COORDINATED_UNIVERSAL_TIME_OFFSET ( 8, 0, .AHEAD. ) ;
#131 = FACE_OUTER_BOUND ( 'NONE', #268, .T. ) ;
#132 = VERTEX_POINT ( 'NONE', #210 ) ;
#133 = DIRECTION ( 'NONE',  ( -1.000000000000000000, -0.000000000000000000, -0.000000000000000000 ) ) ;
#134 = APPROVAL_ROLE ( '' ) ;
#135 = DIRECTION ( 'NONE',  ( 0.000000000000000000, 0.000000000000000000, -1.000000000000000000 ) ) ;
#136 = COORDINATED_UNIVERSAL_TIME_OFFSET ( 8, 0, .AHEAD. ) ;
#137 = DIRECTION ( 'NONE',  ( 1.000000000000000000, 0.000000000000000000, 0.000000000000000000 ) ) ;
#138 = AXIS2_PLACEMENT_3D ( 'NONE', #238, #259, #154 ) ;
#139 = CARTESIAN_POINT ( 'NONE',  ( 3.000000000000000888, 0.000000000000000000, 0.000000000000000000 ) ) ;
#140 = PERSON_AND_ORGANIZATION ( #328, #256 ) ;
#141 = CYLINDRICAL_SURFACE ( 'NONE', #66, 6.349999999999999645 ) ;
#142 = DIRECTION ( 'NONE',  ( -1.000000000000000000, -0.000000000000000000, -0.000000000000000000 ) ) ;
#143 = EDGE_CURVE ( 'NONE', #319, #173, #291, .T. ) ;
#144 = EDGE_CURVE ( 'NONE', #189, #219, #181, .T. ) ;
#145 = AXIS2_PLACEMENT_3D ( 'NONE', #61, #133, #187 ) ;
#146 = ADVANCED_FACE ( 'NONE', ( #92 ), #162, .F. ) ;
#147 = APPLICATION_PROTOCOL_DEFINITION ( 'international standard', 'config_control_design', 1994, #125 ) ;
#148 = CARTESIAN_POINT ( 'NONE',  ( 0.000000000000000000, 0.000000000000000000, 0.000000000000000000 ) ) ;
#149 = DIRECTION ( 'NONE',  ( -1.000000000000000000, -0.000000000000000000, -0.000000000000000000 ) ) ;
#150 = PERSON_AND_ORGANIZATION ( #328, #256 ) ;
#151 = PRODUCT_DEFINITION ( 'UNKNOWN', '', #226, #188 ) ;
#152 = ORIENTED_EDGE ( 'NONE', *, *, #174, .F. ) ;
#153 = CIRCLE ( 'NONE', #100, 6.349999999999999645 ) ;
#154 = DIRECTION ( 'NONE',  ( 0.000000000000000000, 0.000000000000000000, 1.000000000000000000 ) ) ;
#155 = AXIS2_PLACEMENT_3D ( 'NONE', #200, #22, #257 ) ;
#156 = ADVANCED_FACE ( 'NONE', ( #117 ), #43, .T. ) ;
#157 = ORIENTED_EDGE ( 'NONE', *, *, #128, .F. ) ;
#158 = CARTESIAN_POINT ( 'NONE',  ( 3.000000000000000000, 0.000000000000000000, 0.000000000000000000 ) ) ;
#159 = ORIENTED_EDGE ( 'NONE', *, *, #284, .T. ) ;
#160 = EDGE_LOOP ( 'NONE', ( #176, #182 ) ) ;
#161 = DIRECTION ( 'NONE',  ( 0.000000000000000000, 0.000000000000000000, 1.000000000000000000 ) ) ;
#162 = CYLINDRICAL_SURFACE ( 'NONE', #231, 6.349999999999999645 ) ;
#163 = EDGE_LOOP ( 'NONE', ( #292, #68, #285, #95 ) ) ;
#164 = DIRECTION ( 'NONE',  ( 0.000000000000000000, 0.000000000000000000, -1.000000000000000000 ) ) ;
#165 = FACE_OUTER_BOUND ( 'NONE', #235, .T. ) ;
#166 = DIRECTION ( 'NONE',  ( -1.000000000000000000, -0.000000000000000000, -0.000000000000000000 ) ) ;
#167 = APPROVAL ( #120, 'UNSPECIFIED' ) ;
#168 =( NAMED_UNIT ( * ) SI_UNIT ( $, .STERADIAN. ) SOLID_ANGLE_UNIT ( ) );
#169 = AXIS2_PLACEMENT_3D ( 'NONE', #218, #142, #161 ) ;
#170 = CARTESIAN_POINT ( 'NONE',  ( 1.500000000000000888, 0.000000000000000000, 0.000000000000000000 ) ) ;
#171 = EDGE_CURVE ( 'NONE', #242, #189, #249, .T. ) ;
#172 = AXIS2_PLACEMENT_3D ( 'NONE', #304, #16, #229 ) ;
#173 = VERTEX_POINT ( 'NONE', #332 ) ;
#174 = EDGE_CURVE ( 'NONE', #106, #242, #183, .T. ) ;
#175 = CARTESIAN_POINT ( 'NONE',  ( -3.000000000000000000, 6.349999999999999645, 0.000000000000000000 ) ) ;
#176 = ORIENTED_EDGE ( 'NONE', *, *, #284, .F. ) ;
#177 = APPROVAL ( #4, 'UNSPECIFIED' ) ;
#178 = APPROVAL_ROLE ( '' ) ;
#179 = CYLINDRICAL_SURFACE ( 'NONE', #212, 6.349999999999999645 ) ;
#180 = ORIENTED_EDGE ( 'NONE', *, *, #143, .F. ) ;
#181 = CIRCLE ( 'NONE', #205, 6.349999999999999645 ) ;
#182 = ORIENTED_EDGE ( 'NONE', *, *, #144, .F. ) ;
#183 = CIRCLE ( 'NONE', #29, 6.349999999999999645 ) ;
#184 = LOCAL_TIME ( 17, 7, 21.00000000000000000, #130 ) ;
#185 = SHAPE_DEFINITION_REPRESENTATION ( #329, #277 ) ;
#186 = ORIENTED_EDGE ( 'NONE', *, *, #21, .F. ) ;
#187 = DIRECTION ( 'NONE',  ( 0.000000000000000000, 0.000000000000000000, 1.000000000000000000 ) ) ;
#188 = DESIGN_CONTEXT ( 'detailed design', #125, 'design' ) ;
#189 = VERTEX_POINT ( 'NONE', #19 ) ;
#190 = CC_DESIGN_SECURITY_CLASSIFICATION ( #273, ( #226 ) ) ;
#191 = CARTESIAN_POINT ( 'NONE',  ( -1.614212418857619014, 0.000000000000000000, 0.000000000000000000 ) ) ;
#192 = PLANE ( 'NONE',  #172 ) ;
#193 = EDGE_LOOP ( 'NONE', ( #55, #104, #15, #233 ) ) ;
#194 = CIRCLE ( 'NONE', #90, 6.349999999999999645 ) ;
#195 = CARTESIAN_POINT ( 'NONE',  ( 3.000000000000000888, 0.000000000000000000, 0.000000000000000000 ) ) ;
#196 = DIRECTION ( 'NONE',  ( -1.000000000000000000, -0.000000000000000000, -0.000000000000000000 ) ) ;
#197 = PERSON_AND_ORGANIZATION ( #328, #256 ) ;
#198 = AXIS2_PLACEMENT_3D ( 'NONE', #318, #290, #265 ) ;
#199 = CC_DESIGN_DATE_AND_TIME_ASSIGNMENT ( #58, #79, ( #151 ) ) ;
#200 = CARTESIAN_POINT ( 'NONE',  ( -3.000000000000000000, 0.000000000000000000, 0.000000000000000000 ) ) ;
#201 = CARTESIAN_POINT ( 'NONE',  ( 3.000000000000000000, 1.555301434917138433E-15, -12.69999999999999929 ) ) ;
#202 = ADVANCED_FACE ( 'NONE', ( #165 ), #141, .F. ) ;
#203 = ORIENTED_EDGE ( 'NONE', *, *, #118, .F. ) ;
#204 = VECTOR ( 'NONE', #166, 1000.000000000000000 ) ;
#205 = AXIS2_PLACEMENT_3D ( 'NONE', #44, #301, #67 ) ;
#206 = FACE_OUTER_BOUND ( 'NONE', #77, .T. ) ;
#207 = CC_DESIGN_APPROVAL ( #177, ( #226 ) ) ;
#208 = CALENDAR_DATE ( 2020, 22, 12 ) ;
#209 = LINE ( 'NONE', #82, #327 ) ;
#210 = CARTESIAN_POINT ( 'NONE',  ( -3.000000000000000000, 0.000000000000000000, 12.69999999999999929 ) ) ;
#211 = VERTEX_POINT ( 'NONE', #70 ) ;
#212 = AXIS2_PLACEMENT_3D ( 'NONE', #26, #297, #110 ) ;
#213 = DATE_AND_TIME ( #208, #37 ) ;
#214 = DIRECTION ( 'NONE',  ( -0.000000000000000000, 0.000000000000000000, 1.000000000000000000 ) ) ;
#215 = AXIS2_PLACEMENT_3D ( 'NONE', #195, #119, #302 ) ;
#216 = ORIENTED_EDGE ( 'NONE', *, *, #171, .T. ) ;
#217 = CARTESIAN_POINT ( 'NONE',  ( 1.500000000000000444, 6.349999999999999645, 0.000000000000000000 ) ) ;
#218 = CARTESIAN_POINT ( 'NONE',  ( -1.614212418857619014, 0.000000000000000000, 0.000000000000000000 ) ) ;
#219 = VERTEX_POINT ( 'NONE', #17 ) ;
#220 = APPROVAL ( #275, 'UNSPECIFIED' ) ;
#221 = APPLICATION_CONTEXT ( 'configuration controlled 3d designs of mechanical parts and assemblies' ) ;
#222 =( GEOMETRIC_REPRESENTATION_CONTEXT ( 3 ) GLOBAL_UNCERTAINTY_ASSIGNED_CONTEXT ( ( #42 ) ) GLOBAL_UNIT_ASSIGNED_CONTEXT ( ( #311, #76, #168 ) ) REPRESENTATION_CONTEXT ( 'NONE', 'WORKASPACE' ) );
#223 = DIRECTION ( 'NONE',  ( -1.000000000000000000, -0.000000000000000000, -0.000000000000000000 ) ) ;
#224 = CARTESIAN_POINT ( 'NONE',  ( -1.614212418857619014, 7.776507174585692163E-16, -6.349999999999999645 ) ) ;
#225 = CC_DESIGN_PERSON_AND_ORGANIZATION_ASSIGNMENT ( #247, #12, ( #226 ) ) ;
#226 = PRODUCT_DEFINITION_FORMATION_WITH_SPECIFIED_SOURCE ( 'ANY', '', #331, .NOT_KNOWN. ) ;
#227 = CARTESIAN_POINT ( 'NONE',  ( -1.614212418857619014, 0.000000000000000000, 6.349999999999999645 ) ) ;
#228 = CC_DESIGN_PERSON_AND_ORGANIZATION_ASSIGNMENT ( #9, #69, ( #151 ) ) ;
#229 = DIRECTION ( 'NONE',  ( -0.000000000000000000, 0.000000000000000000, 1.000000000000000000 ) ) ;
#230 = CIRCLE ( 'NONE', #138, 12.69999999999999929 ) ;
#231 = AXIS2_PLACEMENT_3D ( 'NONE', #124, #274, #93 ) ;
#232 = DIRECTION ( 'NONE',  ( -1.000000000000000000, -0.000000000000000000, -0.000000000000000000 ) ) ;
#233 = ORIENTED_EDGE ( 'NONE', *, *, #320, .F. ) ;
#234 = DATE_AND_TIME ( #315, #184 ) ;
#235 = EDGE_LOOP ( 'NONE', ( #203, #2, #111, #28 ) ) ;
#236 = EDGE_CURVE ( 'NONE', #242, #106, #263, .T. ) ;
#237 = ORIENTED_EDGE ( 'NONE', *, *, #236, .F. ) ;
#238 = CARTESIAN_POINT ( 'NONE',  ( -3.000000000000000000, 0.000000000000000000, 0.000000000000000000 ) ) ;
#239 = ORIENTED_EDGE ( 'NONE', *, *, #171, .F. ) ;
#240 = PRODUCT_RELATED_PRODUCT_CATEGORY ( 'detail', '', ( #331 ) ) ;
#241 = COORDINATED_UNIVERSAL_TIME_OFFSET ( 8, 0, .AHEAD. ) ;
#242 = VERTEX_POINT ( 'NONE', #326 ) ;
#243 = CARTESIAN_POINT ( 'NONE',  ( 3.000000000000000000, 0.000000000000000000, 0.000000000000000000 ) ) ;
#244 = VECTOR ( 'NONE', #196, 1000.000000000000000 ) ;
#245 = FACE_OUTER_BOUND ( 'NONE', #294, .T. ) ;
#246 = DIRECTION ( 'NONE',  ( -1.000000000000000000, -0.000000000000000000, -0.000000000000000000 ) ) ;
#247 = PERSON_AND_ORGANIZATION ( #328, #256 ) ;
#248 = CARTESIAN_POINT ( 'NONE',  ( -1.500000000000000444, 0.000000000000000000, 6.349999999999999645 ) ) ;
#249 = LINE ( 'NONE', #224, #1 ) ;
#250 = DIRECTION ( 'NONE',  ( -1.000000000000000000, -0.000000000000000000, -0.000000000000000000 ) ) ;
#251 = EDGE_CURVE ( 'NONE', #106, #219, #71, .T. ) ;
#252 = AXIS2_PLACEMENT_3D ( 'NONE', #170, #149, #102 ) ;
#253 = AXIS2_PLACEMENT_3D ( 'NONE', #148, #278, #99 ) ;
#254 = CC_DESIGN_PERSON_AND_ORGANIZATION_ASSIGNMENT ( #150, #260, ( #273 ) ) ;
#255 = PERSON_AND_ORGANIZATION ( #328, #256 ) ;
#256 = ORGANIZATION ( 'UNSPECIFIED', 'UNSPECIFIED', '' ) ;
#257 = DIRECTION ( 'NONE',  ( 0.000000000000000000, 0.000000000000000000, 1.000000000000000000 ) ) ;
#258 = EDGE_LOOP ( 'NONE', ( #157, #51 ) ) ;
#259 = DIRECTION ( 'NONE',  ( -1.000000000000000000, -0.000000000000000000, -0.000000000000000000 ) ) ;
#260 = PERSON_AND_ORGANIZATION_ROLE ( 'classification_officer' ) ;
#261 = CYLINDRICAL_SURFACE ( 'NONE', #198, 6.349999999999999645 ) ;
#262 = ORIENTED_EDGE ( 'NONE', *, *, #174, .T. ) ;
#263 = CIRCLE ( 'NONE', #215, 6.349999999999999645 ) ;
#264 = DATE_AND_TIME ( #289, #126 ) ;
#265 = DIRECTION ( 'NONE',  ( 0.000000000000000000, 0.000000000000000000, 1.000000000000000000 ) ) ;
#266 = VERTEX_POINT ( 'NONE', #248 ) ;
#267 = PLANE ( 'NONE',  #308 ) ;
#268 = EDGE_LOOP ( 'NONE', ( #239, #152, #60, #159 ) ) ;
#269 = EDGE_CURVE ( 'NONE', #319, #81, #306, .T. ) ;
#270 = CARTESIAN_POINT ( 'NONE',  ( -3.000000000000000000, 1.555301434917138433E-15, -12.69999999999999929 ) ) ;
#271 = EDGE_CURVE ( 'NONE', #35, #266, #194, .T. ) ;
#272 = DIRECTION ( 'NONE',  ( -1.000000000000000000, -0.000000000000000000, -0.000000000000000000 ) ) ;
#273 = SECURITY_CLASSIFICATION ( '', '', #50 ) ;
#274 = DIRECTION ( 'NONE',  ( -1.000000000000000000, -0.000000000000000000, -0.000000000000000000 ) ) ;
#275 = APPROVAL_STATUS ( 'not_yet_approved' ) ;
#276 = ADVANCED_FACE ( 'NONE', ( #245, #73 ), #192, .F. ) ;
#277 = ADVANCED_BREP_SHAPE_REPRESENTATION ( 'Q-AZHWP-12.7-532-M', ( #8, #253 ), #222 ) ;
#278 = DIRECTION ( 'NONE',  ( 0.000000000000000000, 0.000000000000000000, 1.000000000000000000 ) ) ;
#279 = CC_DESIGN_PERSON_AND_ORGANIZATION_ASSIGNMENT ( #197, #46, ( #331 ) ) ;
#280 = CIRCLE ( 'NONE', #310, 6.349999999999999645 ) ;
#281 = LINE ( 'NONE', #227, #48 ) ;
#282 = CLOSED_SHELL ( 'NONE', ( #335, #56, #146, #101, #127, #202, #38, #156, #276, #49 ) ) ;
#283 = AXIS2_PLACEMENT_3D ( 'NONE', #129, #232, #45 ) ;
#284 = EDGE_CURVE ( 'NONE', #219, #189, #72, .T. ) ;
#285 = ORIENTED_EDGE ( 'NONE', *, *, #307, .T. ) ;
#286 = CALENDAR_DATE ( 2020, 22, 12 ) ;
#287 = CARTESIAN_POINT ( 'NONE',  ( -1.500000000000000444, 6.349999999999999645, 0.000000000000000000 ) ) ;
#288 = ORIENTED_EDGE ( 'NONE', *, *, #143, .T. ) ;
#289 = CALENDAR_DATE ( 2020, 22, 12 ) ;
#290 = DIRECTION ( 'NONE',  ( -1.000000000000000000, -0.000000000000000000, -0.000000000000000000 ) ) ;
#291 = CIRCLE ( 'NONE', #334, 12.69999999999999929 ) ;
#292 = ORIENTED_EDGE ( 'NONE', *, *, #128, .T. ) ;
#293 = DIRECTION ( 'NONE',  ( 0.000000000000000000, 0.000000000000000000, -1.000000000000000000 ) ) ;
#294 = EDGE_LOOP ( 'NONE', ( #57, #180 ) ) ;
#295 = COORDINATED_UNIVERSAL_TIME_OFFSET ( 8, 0, .AHEAD. ) ;
#296 = EDGE_CURVE ( 'NONE', #266, #25, #281, .T. ) ;
#297 = DIRECTION ( 'NONE',  ( -1.000000000000000000, -0.000000000000000000, -0.000000000000000000 ) ) ;
#298 = CIRCLE ( 'NONE', #145, 6.349999999999999645 ) ;
#299 = CIRCLE ( 'NONE', #155, 12.69999999999999929 ) ;
#300 = DIRECTION ( 'NONE',  ( 0.000000000000000000, 0.000000000000000000, 1.000000000000000000 ) ) ;
#301 = DIRECTION ( 'NONE',  ( -1.000000000000000000, -0.000000000000000000, -0.000000000000000000 ) ) ;
#302 = DIRECTION ( 'NONE',  ( 0.000000000000000000, 0.000000000000000000, 1.000000000000000000 ) ) ;
#303 = CIRCLE ( 'NONE', #3, 12.69999999999999929 ) ;
#304 = CARTESIAN_POINT ( 'NONE',  ( 3.000000000000000000, 12.69999999999999929, 0.000000000000000000 ) ) ;
#305 = CC_DESIGN_APPROVAL ( #167, ( #151 ) ) ;
#306 = LINE ( 'NONE', #122, #121 ) ;
#307 = EDGE_CURVE ( 'NONE', #211, #25, #280, .T. ) ;
#308 = AXIS2_PLACEMENT_3D ( 'NONE', #175, #13, #293 ) ;
#309 = CYLINDRICAL_SURFACE ( 'NONE', #283, 12.69999999999999929 ) ;
#310 = AXIS2_PLACEMENT_3D ( 'NONE', #312, #250, #47 ) ;
#311 =( LENGTH_UNIT ( ) NAMED_UNIT ( * ) SI_UNIT ( .MILLI., .METRE. ) );
#312 = CARTESIAN_POINT ( 'NONE',  ( -2.999999999999999556, 0.000000000000000000, 0.000000000000000000 ) ) ;
#313 = APPROVAL_DATE_TIME ( #264, #177 ) ;
#314 = ORIENTED_EDGE ( 'NONE', *, *, #333, .T. ) ;
#315 = CALENDAR_DATE ( 2020, 22, 12 ) ;
#316 = DIRECTION ( 'NONE',  ( 0.000000000000000000, 0.000000000000000000, 1.000000000000000000 ) ) ;
#317 = ORIENTED_EDGE ( 'NONE', *, *, #269, .F. ) ;
#318 = CARTESIAN_POINT ( 'NONE',  ( -1.614212418857619014, 0.000000000000000000, 0.000000000000000000 ) ) ;
#319 = VERTEX_POINT ( 'NONE', #201 ) ;
#320 = EDGE_CURVE ( 'NONE', #173, #132, #74, .T. ) ;
#321 = ORIENTED_EDGE ( 'NONE', *, *, #307, .F. ) ;
#322 = PERSON_AND_ORGANIZATION ( #328, #256 ) ;
#323 = CARTESIAN_POINT ( 'NONE',  ( 3.000000000000000888, 0.000000000000000000, 6.349999999999999645 ) ) ;
#324 = ORIENTED_EDGE ( 'NONE', *, *, #236, .T. ) ;
#325 = DIRECTION ( 'NONE',  ( 1.000000000000000000, 0.000000000000000000, 0.000000000000000000 ) ) ;
#326 = CARTESIAN_POINT ( 'NONE',  ( 3.000000000000000888, 7.776507174585692163E-16, -6.349999999999999645 ) ) ;
#327 = VECTOR ( 'NONE', #84, 1000.000000000000000 ) ;
#328 = PERSON ( 'UNSPECIFIED', 'UNSPECIFIED', 'UNSPECIFIED', ('UNSPECIFIED'), ('UNSPECIFIED'), ('UNSPECIFIED') ) ;
#329 = PRODUCT_DEFINITION_SHAPE ( 'NONE', 'NONE',  #151 ) ;
#330 = CARTESIAN_POINT ( 'NONE',  ( -1.500000000000000444, 0.000000000000000000, 0.000000000000000000 ) ) ;
#331 = PRODUCT ( 'Q-AZHWP-12.7-532-M', 'Q-AZHWP-12.7-532-M', '', ( #23 ) ) ;
#332 = CARTESIAN_POINT ( 'NONE',  ( 3.000000000000000000, 0.000000000000000000, 12.69999999999999929 ) ) ;
#333 = EDGE_CURVE ( 'NONE', #132, #81, #299, .T. ) ;
#334 = AXIS2_PLACEMENT_3D ( 'NONE', #158, #34, #300 ) ;
#335 = ADVANCED_FACE ( 'NONE', ( #24 ), #309, .T. ) ;
ENDSEC;
END-ISO-10303-21;
